ISO-10303-21;
HEADER;
/* RV_Disc_D15.5mm_W4.9mm_P7.5mm.step 3D STEP model for use in ECAD systems
 * Copyright (C) 2018, kicad StepUp
 * 
 * This work is licensed under the [Creative Commons CC-BY-SA 4.0 License](https://creativecommons.org/licenses/by-sa/4.0/legalcode), 
 * with the following exception:
 * To the extent that the creation of electronic designs that use 'Licensed Material' can be considered to be 'Adapted Material', 
 * then the copyright holder waives article 3 of the license with respect to these designs and any generated files which use data provided 
 * as part of the 'Licensed Material'.
 * You are free to use the library data in your own projects without the obligation to share your project files under this or any other license agreement.
 * However, if you wish to redistribute these libraries, or parts thereof (including in modified form) as a collection then the exception above does not apply. 
 * Please refer to https://github.com/KiCad/kicad-packages3D/blob/master/LICENSE.md for further clarification of the exception.
 * Disclaimer of Warranties and Limitation of Liability.
 * These libraries are provided in the hope that they will be useful, but are provided without warranty of any kind, express or implied.
 * *USE 3D CAD DATA AT YOUR OWN RISK*
 * *DO NOT RELY UPON ANY INFORMATION FOUND HERE WITHOUT INDEPENDENT VERIFICATION.*
 * 
 */

FILE_DESCRIPTION(
/* description */ ('model of RV_Disc_D15.5mm_W4.9mm_P7.5mm'),
/* implementation_level */ '2;1');

FILE_NAME(
/* name */ 'RV_Disc_D15.5mm_W4.9mm_P7.5mm.step',
/* time_stamp */ '2018-11-11T20:58:58',
/* author */ ('kicad StepUp','ksu'),
/* organization */ ('FreeCAD'),
/* preprocessor_version */ 'OCC',
/* originating_system */ 'kicad StepUp',
/* authorisation */ '');

FILE_SCHEMA(('AUTOMOTIVE_DESIGN { 1 0 10303 214 1 1 1 1 }'));
ENDSEC;

DATA;
#1 = APPLICATION_PROTOCOL_DEFINITION('international standard',
'automotive_design',2000,#2);
#2 = APPLICATION_CONTEXT(
'core data for automotive mechanical design processes');
#3 = SHAPE_DEFINITION_REPRESENTATION(#4,#10);
#4 = PRODUCT_DEFINITION_SHAPE('','',#5);
#5 = PRODUCT_DEFINITION('design','',#6,#9);
#6 = PRODUCT_DEFINITION_FORMATION('','',#7);
#7 = PRODUCT('RV_Disc_D155mm_W49mm_P75mm','RV_Disc_D155mm_W49mm_P75mm',
'',(#8));
#8 = PRODUCT_CONTEXT('',#2,'mechanical');
#9 = PRODUCT_DEFINITION_CONTEXT('part definition',#2,'design');
#10 = ADVANCED_BREP_SHAPE_REPRESENTATION('',(#11,#15),#382);
#11 = AXIS2_PLACEMENT_3D('',#12,#13,#14);
#12 = CARTESIAN_POINT('',(0.E+000,0.E+000,0.E+000));
#13 = DIRECTION('',(0.E+000,0.E+000,1.));
#14 = DIRECTION('',(1.,0.E+000,-0.E+000));
#15 = MANIFOLD_SOLID_BREP('',#16);
#16 = CLOSED_SHELL('',(#17,#50,#140,#242,#251,#277,#286,#312,#338,#364,
#373));
#17 = ADVANCED_FACE('',(#18),#45,.T.);
#18 = FACE_BOUND('',#19,.F.);
#19 = EDGE_LOOP('',(#20,#30,#37,#38));
#20 = ORIENTED_EDGE('',*,*,#21,.T.);
#21 = EDGE_CURVE('',#22,#24,#26,.T.);
#22 = VERTEX_POINT('',#23);
#23 = CARTESIAN_POINT('',(11.5,-1.040243902439,7.78));
#24 = VERTEX_POINT('',#25);
#25 = CARTESIAN_POINT('',(11.5,-1.159756097561,7.78));
#26 = LINE('',#27,#28);
#27 = CARTESIAN_POINT('',(11.5,1.35,7.78));
#28 = VECTOR('',#29,1.);
#29 = DIRECTION('',(0.E+000,-1.,0.E+000));
#30 = ORIENTED_EDGE('',*,*,#31,.T.);
#31 = EDGE_CURVE('',#24,#24,#32,.T.);
#32 = CIRCLE('',#33,7.75);
#33 = AXIS2_PLACEMENT_3D('',#34,#35,#36);
#34 = CARTESIAN_POINT('',(3.75,-1.159756097561,7.78));
#35 = DIRECTION('',(1.09450004193E-033,-1.,7.66150029351E-033));
#36 = DIRECTION('',(1.,1.09450004193E-033,-2.36294894969E-033));
#37 = ORIENTED_EDGE('',*,*,#21,.F.);
#38 = ORIENTED_EDGE('',*,*,#39,.F.);
#39 = EDGE_CURVE('',#22,#22,#40,.T.);
#40 = CIRCLE('',#41,7.75);
#41 = AXIS2_PLACEMENT_3D('',#42,#43,#44);
#42 = CARTESIAN_POINT('',(3.75,-1.040243902439,7.78));
#43 = DIRECTION('',(1.09450004193E-033,-1.,7.66150029351E-033));
#44 = DIRECTION('',(1.,1.09450004193E-033,2.36294894969E-033));
#45 = CYLINDRICAL_SURFACE('',#46,7.75);
#46 = AXIS2_PLACEMENT_3D('',#47,#48,#49);
#47 = CARTESIAN_POINT('',(3.75,1.35,7.78));
#48 = DIRECTION('',(0.E+000,1.,0.E+000));
#49 = DIRECTION('',(1.,0.E+000,0.E+000));
#50 = ADVANCED_FACE('',(#51,#71),#135,.T.);
#51 = FACE_BOUND('',#52,.F.);
#52 = EDGE_LOOP('',(#53,#54,#63,#70));
#53 = ORIENTED_EDGE('',*,*,#39,.T.);
#54 = ORIENTED_EDGE('',*,*,#55,.T.);
#55 = EDGE_CURVE('',#22,#56,#58,.T.);
#56 = VERTEX_POINT('',#57);
#57 = CARTESIAN_POINT('',(9.109756097561,1.35,7.78));
#58 = CIRCLE('',#59,2.390243902439);
#59 = AXIS2_PLACEMENT_3D('',#60,#61,#62);
#60 = CARTESIAN_POINT('',(9.109756097561,-1.040243902439,7.78));
#61 = DIRECTION('',(-2.36294894969E-033,7.66150029351E-033,1.));
#62 = DIRECTION('',(1.,1.09450004193E-033,2.36294894969E-033));
#63 = ORIENTED_EDGE('',*,*,#64,.F.);
#64 = EDGE_CURVE('',#56,#56,#65,.T.);
#65 = CIRCLE('',#66,5.359756097561);
#66 = AXIS2_PLACEMENT_3D('',#67,#68,#69);
#67 = CARTESIAN_POINT('',(3.75,1.35,7.78));
#68 = DIRECTION('',(1.09450004193E-033,-1.,7.66150029351E-033));
#69 = DIRECTION('',(1.,1.09450004193E-033,2.36294894969E-033));
#70 = ORIENTED_EDGE('',*,*,#55,.F.);
#71 = FACE_BOUND('',#72,.F.);
#72 = EDGE_LOOP('',(#73,#94));
#73 = ORIENTED_EDGE('',*,*,#74,.T.);
#74 = EDGE_CURVE('',#75,#77,#79,.T.);
#75 = VERTEX_POINT('',#76);
#76 = CARTESIAN_POINT('',(0.36,0.E+000,1.076674703264));
#77 = VERTEX_POINT('',#78);
#78 = CARTESIAN_POINT('',(-4.250919652459E-002,-0.357481423588,
1.135779411072));
#79 = B_SPLINE_CURVE_WITH_KNOTS('',7,(#80,#81,#82,#83,#84,#85,#86,#87,
#88,#89,#90,#91,#92,#93),.UNSPECIFIED.,.F.,.F.,(8,6,8),(0.E+000,
0.349120267176,1.),.UNSPECIFIED.);
#80 = CARTESIAN_POINT('',(0.36,-5.551115123126E-017,1.076674703264));
#81 = CARTESIAN_POINT('',(0.36,-2.850625834518E-002,1.061233452107));
#82 = CARTESIAN_POINT('',(0.357366479856,-5.734126872834E-002,
1.047563447857));
#83 = CARTESIAN_POINT('',(0.351990506686,-8.622699316786E-002,
1.035865276534));
#84 = CARTESIAN_POINT('',(0.343792623006,-0.114840679819,1.026322491834)
);
#85 = CARTESIAN_POINT('',(0.332748856421,-0.142814249646,1.019082481558)
);
#86 = CARTESIAN_POINT('',(0.318914561969,-0.169751013589,1.014237755477)
);
#87 = CARTESIAN_POINT('',(0.27174323902,-0.242816684804,1.007277114463)
);
#88 = CARTESIAN_POINT('',(0.231899848496,-0.28538644299,1.01114152697));
#89 = CARTESIAN_POINT('',(0.183902171362,-0.320503940969,1.023508630845)
);
#90 = CARTESIAN_POINT('',(0.129669736874,-0.346059308346,1.043642835155)
);
#91 = CARTESIAN_POINT('',(7.186158692908E-002,-0.360681358337,
1.070184147805));
#92 = CARTESIAN_POINT('',(1.354910154654E-002,-0.364147485242,
1.101493624878));
#93 = CARTESIAN_POINT('',(-4.250919652459E-002,-0.357481423588,
1.135779411072));
#94 = ORIENTED_EDGE('',*,*,#95,.T.);
#95 = EDGE_CURVE('',#77,#75,#96,.T.);
#96 = B_SPLINE_CURVE_WITH_KNOTS('',7,(#97,#98,#99,#100,#101,#102,#103,
#104,#105,#106,#107,#108,#109,#110,#111,#112,#113,#114,#115,#116,
#117,#118,#119,#120,#121,#122,#123,#124,#125,#126,#127,#128,#129,
#130,#131,#132,#133,#134),.UNSPECIFIED.,.F.,.F.,(8,6,6,6,6,6,8),(
0.E+000,0.182683393151,0.409010908229,0.552861517917,0.674533723204,
0.817909608244,1.),.UNSPECIFIED.);
#97 = CARTESIAN_POINT('',(-4.250919652459E-002,-0.357481423588,
1.135779411072));
#98 = CARTESIAN_POINT('',(-8.745648369837E-002,-0.352136605823,
1.163269597737));
#99 = CARTESIAN_POINT('',(-0.130876695955,-0.340286918114,1.192626033722
));
#100 = CARTESIAN_POINT('',(-0.171695366857,-0.322458061412,
1.223120983511));
#101 = CARTESIAN_POINT('',(-0.209078339685,-0.299360125364,1.25417041208
));
#102 = CARTESIAN_POINT('',(-0.242422361684,-0.271749639616,
1.285322908196));
#103 = CARTESIAN_POINT('',(-0.271300436078,-0.240348344404,
1.316222867608));
#104 = CARTESIAN_POINT('',(-0.325171858496,-0.163039679492,
1.384117839317));
#105 = CARTESIAN_POINT('',(-0.347538650795,-0.115531220661,
1.420741883077));
#106 = CARTESIAN_POINT('',(-0.361825781405,-6.460723679483E-002,
1.455793822489));
#107 = CARTESIAN_POINT('',(-0.367503625706,-1.159943773999E-002,
1.488594875008));
#108 = CARTESIAN_POINT('',(-0.364160600057,4.203075893472E-002,
1.51829638004));
#109 = CARTESIAN_POINT('',(-0.351555804135,9.465153113992E-002,
1.543724131096));
#110 = CARTESIAN_POINT('',(-0.315918832083,0.176031706764,1.575882325935
));
#111 = CARTESIAN_POINT('',(-0.298366260752,0.206484715951,1.586043988426
));
#112 = CARTESIAN_POINT('',(-0.277151289966,0.23526069851,1.59348044092)
);
#113 = CARTESIAN_POINT('',(-0.252404032429,0.261783046382,1.597746986671
));
#114 = CARTESIAN_POINT('',(-0.224420553132,0.285436994906,1.598399654995
));
#115 = CARTESIAN_POINT('',(-0.193698937336,0.305650773104,1.595111542406
));
#116 = CARTESIAN_POINT('',(-0.133220436142,0.335875232145,1.581708614104
));
#117 = CARTESIAN_POINT('',(-0.104027559175,0.346987177804,1.572720375176
));
#118 = CARTESIAN_POINT('',(-7.380471413639E-002,0.355095673372,
1.560864803183));
#119 = CARTESIAN_POINT('',(-4.306507569977E-002,0.360067043383,
1.546277602859));
#120 = CARTESIAN_POINT('',(-1.23347434137E-002,0.361909138438,
1.529263113115));
#121 = CARTESIAN_POINT('',(1.788811483789E-002,0.360765951542,
1.510265241179));
#122 = CARTESIAN_POINT('',(8.166247574047E-002,0.35233812762,
1.465678114503));
#123 = CARTESIAN_POINT('',(0.114892555641,0.343988118096,1.439485075142)
);
#124 = CARTESIAN_POINT('',(0.14645012812,0.332213335572,1.411826499732)
);
#125 = CARTESIAN_POINT('',(0.176063822093,0.317382033626,1.383272383614)
);
#126 = CARTESIAN_POINT('',(0.203550984772,0.299819541548,1.354304002832)
);
#127 = CARTESIAN_POINT('',(0.228774332873,0.27978695293,1.32530668213));
#128 = CARTESIAN_POINT('',(0.280587862429,0.229157454094,1.260154694837)
);
#129 = CARTESIAN_POINT('',(0.305668503731,0.197207022235,1.224231223923)
);
#130 = CARTESIAN_POINT('',(0.326546801128,0.162092311266,1.189543072975)
);
#131 = CARTESIAN_POINT('',(0.342858537853,0.124235558045,1.156759895391)
);
#132 = CARTESIAN_POINT('',(0.354163513875,8.413345042649E-002,
1.126567942993));
#133 = CARTESIAN_POINT('',(0.36,4.243715966549E-002,1.099662035828));
#134 = CARTESIAN_POINT('',(0.36,-5.551115123126E-017,1.076674703264));
#135 = TOROIDAL_SURFACE('',#136,5.359756097561,2.390243902439);
#136 = AXIS2_PLACEMENT_3D('',#137,#138,#139);
#137 = CARTESIAN_POINT('',(3.75,-1.040243902439,7.78));
#138 = DIRECTION('',(-1.09450004193E-033,1.,-7.66150029351E-033));
#139 = DIRECTION('',(1.,1.09450004193E-033,2.36294894969E-033));
#140 = ADVANCED_FACE('',(#141,#161),#237,.T.);
#141 = FACE_BOUND('',#142,.T.);
#142 = EDGE_LOOP('',(#143,#144,#153,#160));
#143 = ORIENTED_EDGE('',*,*,#31,.T.);
#144 = ORIENTED_EDGE('',*,*,#145,.T.);
#145 = EDGE_CURVE('',#24,#146,#148,.T.);
#146 = VERTEX_POINT('',#147);
#147 = CARTESIAN_POINT('',(9.109756097561,-3.55,7.78));
#148 = CIRCLE('',#149,2.390243902439);
#149 = AXIS2_PLACEMENT_3D('',#150,#151,#152);
#150 = CARTESIAN_POINT('',(9.109756097561,-1.159756097561,7.78));
#151 = DIRECTION('',(-2.36294894969E-033,-7.66150029351E-033,-1.));
#152 = DIRECTION('',(1.,1.09450004193E-033,-2.36294894969E-033));
#153 = ORIENTED_EDGE('',*,*,#154,.F.);
#154 = EDGE_CURVE('',#146,#146,#155,.T.);
#155 = CIRCLE('',#156,5.359756097561);
#156 = AXIS2_PLACEMENT_3D('',#157,#158,#159);
#157 = CARTESIAN_POINT('',(3.75,-3.55,7.78));
#158 = DIRECTION('',(1.09450004193E-033,-1.,7.66150029351E-033));
#159 = DIRECTION('',(1.,1.09450004193E-033,-2.36294894969E-033));
#160 = ORIENTED_EDGE('',*,*,#145,.F.);
#161 = FACE_BOUND('',#162,.T.);
#162 = EDGE_LOOP('',(#163,#184));
#163 = ORIENTED_EDGE('',*,*,#164,.T.);
#164 = EDGE_CURVE('',#165,#167,#169,.T.);
#165 = VERTEX_POINT('',#166);
#166 = CARTESIAN_POINT('',(7.86,-2.2,1.49234781227));
#167 = VERTEX_POINT('',#168);
#168 = CARTESIAN_POINT('',(7.505705577242,-1.840045216189,1.114062163789
));
#169 = B_SPLINE_CURVE_WITH_KNOTS('',7,(#170,#171,#172,#173,#174,#175,
#176,#177,#178,#179,#180,#181,#182,#183),.UNSPECIFIED.,.F.,.F.,(8,6,
8),(0.E+000,0.398808675188,1.),.UNSPECIFIED.);
#170 = CARTESIAN_POINT('',(7.86,-2.2,1.49234781227));
#171 = CARTESIAN_POINT('',(7.86,-2.16856753315,1.474195894242));
#172 = CARTESIAN_POINT('',(7.85679800634,-2.137322449197,1.454866925352)
);
#173 = CARTESIAN_POINT('',(7.850463256142,-2.106590348597,1.434575603667
));
#174 = CARTESIAN_POINT('',(7.841082926495,-2.076681401118,1.413503563852
));
#175 = CARTESIAN_POINT('',(7.828763036677,-2.047894558245,1.391809521726
));
#176 = CARTESIAN_POINT('',(7.81362935038,-2.020521765592,1.369639418813)
);
#177 = CARTESIAN_POINT('',(7.768993730456,-1.956156088811,1.313214237234
));
#178 = CARTESIAN_POINT('',(7.736135546611,-1.921384415887,1.278583347433
));
#179 = CARTESIAN_POINT('',(7.697733260208,-1.891429467322,1.243669508305
));
#180 = CARTESIAN_POINT('',(7.6543774584,-1.867310661828,1.208971632616)
);
#181 = CARTESIAN_POINT('',(7.606965288131,-1.850126196261,1.175155151575
));
#182 = CARTESIAN_POINT('',(7.556837107709,-1.840855692698,1.143146744351
));
#183 = CARTESIAN_POINT('',(7.505705577242,-1.840045216189,1.114062163789
));
#184 = ORIENTED_EDGE('',*,*,#185,.T.);
#185 = EDGE_CURVE('',#167,#165,#186,.T.);
#186 = B_SPLINE_CURVE_WITH_KNOTS('',7,(#187,#188,#189,#190,#191,#192,
#193,#194,#195,#196,#197,#198,#199,#200,#201,#202,#203,#204,#205,
#206,#207,#208,#209,#210,#211,#212,#213,#214,#215,#216,#217,#218,
#219,#220,#221,#222,#223,#224,#225,#226,#227,#228,#229,#230,#231,
#232,#233,#234,#235,#236),.UNSPECIFIED.,.F.,.F.,(8,6,6,6,6,6,6,6,8),
(0.E+000,0.205854685493,0.307749397002,0.359245876473,0.507292907085,
0.646941702976,0.818828615674,0.891966939741,1.),.UNSPECIFIED.);
#187 = CARTESIAN_POINT('',(7.505705577242,-1.840045216189,1.114062163789
));
#188 = CARTESIAN_POINT('',(7.4537535077,-1.839221733466,1.084510845098)
);
#189 = CARTESIAN_POINT('',(7.401043067198,-1.847136091758,1.058135358703
));
#190 = CARTESIAN_POINT('',(7.349700223313,-1.864199483111,1.036224059386
));
#191 = CARTESIAN_POINT('',(7.301940732416,-1.890008637268,1.019943203645
));
#192 = CARTESIAN_POINT('',(7.259675524029,-1.92343180138,1.010241117765)
);
#193 = CARTESIAN_POINT('',(7.224299174214,-1.962829918162,1.007614888908
));
#194 = CARTESIAN_POINT('',(7.182810159324,-2.02783010187,1.014111895491)
);
#195 = CARTESIAN_POINT('',(7.170942350494,-2.050349598995,1.017971099994
));
#196 = CARTESIAN_POINT('',(7.161033984008,-2.073634918366,1.023525265873
));
#197 = CARTESIAN_POINT('',(7.153126101083,-2.097450901099,1.030725300028
));
#198 = CARTESIAN_POINT('',(7.147218569017,-2.121573828072,1.039493111918
));
#199 = CARTESIAN_POINT('',(7.143279617482,-2.145799553074,1.049729234704
));
#200 = CARTESIAN_POINT('',(7.140234396306,-2.182148628854,1.067179472085
));
#201 = CARTESIAN_POINT('',(7.139701392542,-2.194332085911,1.073384482149
));
#202 = CARTESIAN_POINT('',(7.139650976004,-2.206472855659,1.079921888605
));
#203 = CARTESIAN_POINT('',(7.1400751619,-2.218549498506,1.086776780742)
);
#204 = CARTESIAN_POINT('',(7.140965062673,-2.230542124231,1.093933774301
));
#205 = CARTESIAN_POINT('',(7.142311219576,-2.242432345654,1.101377227396
));
#206 = CARTESIAN_POINT('',(7.149257802814,-2.288043309047,1.131269063806
));
#207 = CARTESIAN_POINT('',(7.158101141797,-2.320888171731,1.155678800315
));
#208 = CARTESIAN_POINT('',(7.170401507256,-2.352349207298,1.181954236772
));
#209 = CARTESIAN_POINT('',(7.185915022643,-2.382113327025,1.209717107836
));
#210 = CARTESIAN_POINT('',(7.204415932957,-2.409919304545,1.238591458191
));
#211 = CARTESIAN_POINT('',(7.225709569633,-2.435526767188,1.268200565172
));
#212 = CARTESIAN_POINT('',(7.272191025456,-2.480515627748,1.326393965491
));
#213 = CARTESIAN_POINT('',(7.297068698216,-2.500147890593,1.354915347276
));
#214 = CARTESIAN_POINT('',(7.324133758965,-2.517383560237,1.383399616345
));
#215 = CARTESIAN_POINT('',(7.353254711526,-2.531973467502,1.411478668835
));
#216 = CARTESIAN_POINT('',(7.384257442258,-2.54360850849,1.438694966955)
);
#217 = CARTESIAN_POINT('',(7.416885239853,-2.551939160453,1.464508025293
));
#218 = CARTESIAN_POINT('',(7.492450203424,-2.562373270839,1.517673351867
));
#219 = CARTESIAN_POINT('',(7.536204795479,-2.562619891571,1.544128919639
));
#220 = CARTESIAN_POINT('',(7.5806410873,-2.55652646633,1.566098018553));
#221 = CARTESIAN_POINT('',(7.624179808203,-2.543848398125,1.582343104995
));
#222 = CARTESIAN_POINT('',(7.665285748359,-2.524948059597,1.59244406871)
);
#223 = CARTESIAN_POINT('',(7.702732865245,-2.500670262004,1.596654173558
));
#224 = CARTESIAN_POINT('',(7.74973840207,-2.459952521357,1.595126340175)
);
#225 = CARTESIAN_POINT('',(7.762969054344,-2.447014242071,1.593713632783
));
#226 = CARTESIAN_POINT('',(7.775342061324,-2.433367765729,1.591389219059
));
#227 = CARTESIAN_POINT('',(7.786814124793,-2.419091922613,1.588206338714
));
#228 = CARTESIAN_POINT('',(7.79735415926,-2.404265656341,1.584222645498)
);
#229 = CARTESIAN_POINT('',(7.806941330216,-2.388965427587,1.579496334972
));
#230 = CARTESIAN_POINT('',(7.828298349355,-2.350067902609,1.566085127605
));
#231 = CARTESIAN_POINT('',(7.838925272548,-2.325998398865,1.55658879239)
);
#232 = CARTESIAN_POINT('',(7.847406344368,-2.301281518757,1.545770998322
));
#233 = CARTESIAN_POINT('',(7.853734276896,-2.276132296676,1.533798893816
));
#234 = CARTESIAN_POINT('',(7.857923000424,-2.250749683281,1.52082155016)
);
#235 = CARTESIAN_POINT('',(7.86,-2.225316063721,1.506967572013));
#236 = CARTESIAN_POINT('',(7.86,-2.2,1.49234781227));
#237 = TOROIDAL_SURFACE('',#238,5.359756097561,2.390243902439);
#238 = AXIS2_PLACEMENT_3D('',#239,#240,#241);
#239 = CARTESIAN_POINT('',(3.75,-1.159756097561,7.78));
#240 = DIRECTION('',(1.09450004193E-033,-1.,7.66150029351E-033));
#241 = DIRECTION('',(1.,1.09450004193E-033,-2.36294894969E-033));
#242 = ADVANCED_FACE('',(#243),#246,.F.);
#243 = FACE_BOUND('',#244,.F.);
#244 = EDGE_LOOP('',(#245));
#245 = ORIENTED_EDGE('',*,*,#64,.T.);
#246 = PLANE('',#247);
#247 = AXIS2_PLACEMENT_3D('',#248,#249,#250);
#248 = CARTESIAN_POINT('',(3.75,1.35,7.78));
#249 = DIRECTION('',(1.09450004193E-033,-1.,7.66150029351E-033));
#250 = DIRECTION('',(0.E+000,-7.66150029351E-033,-1.));
#251 = ADVANCED_FACE('',(#252),#272,.T.);
#252 = FACE_BOUND('',#253,.T.);
#253 = EDGE_LOOP('',(#254,#255,#263,#270,#271));
#254 = ORIENTED_EDGE('',*,*,#95,.T.);
#255 = ORIENTED_EDGE('',*,*,#256,.T.);
#256 = EDGE_CURVE('',#75,#257,#259,.T.);
#257 = VERTEX_POINT('',#258);
#258 = CARTESIAN_POINT('',(0.36,0.E+000,-2.856));
#259 = LINE('',#260,#261);
#260 = CARTESIAN_POINT('',(0.36,0.E+000,7.78));
#261 = VECTOR('',#262,1.);
#262 = DIRECTION('',(-0.E+000,-0.E+000,-1.));
#263 = ORIENTED_EDGE('',*,*,#264,.T.);
#264 = EDGE_CURVE('',#257,#257,#265,.T.);
#265 = CIRCLE('',#266,0.36);
#266 = AXIS2_PLACEMENT_3D('',#267,#268,#269);
#267 = CARTESIAN_POINT('',(0.E+000,0.E+000,-2.856));
#268 = DIRECTION('',(0.E+000,0.E+000,1.));
#269 = DIRECTION('',(1.,0.E+000,0.E+000));
#270 = ORIENTED_EDGE('',*,*,#256,.F.);
#271 = ORIENTED_EDGE('',*,*,#74,.T.);
#272 = CYLINDRICAL_SURFACE('',#273,0.36);
#273 = AXIS2_PLACEMENT_3D('',#274,#275,#276);
#274 = CARTESIAN_POINT('',(0.E+000,0.E+000,7.78));
#275 = DIRECTION('',(0.E+000,0.E+000,1.));
#276 = DIRECTION('',(1.,0.E+000,0.E+000));
#277 = ADVANCED_FACE('',(#278),#281,.T.);
#278 = FACE_BOUND('',#279,.T.);
#279 = EDGE_LOOP('',(#280));
#280 = ORIENTED_EDGE('',*,*,#154,.T.);
#281 = PLANE('',#282);
#282 = AXIS2_PLACEMENT_3D('',#283,#284,#285);
#283 = CARTESIAN_POINT('',(3.75,-3.55,7.78));
#284 = DIRECTION('',(1.09450004193E-033,-1.,7.66150029351E-033));
#285 = DIRECTION('',(0.E+000,-7.66150029351E-033,-1.));
#286 = ADVANCED_FACE('',(#287),#307,.T.);
#287 = FACE_BOUND('',#288,.T.);
#288 = EDGE_LOOP('',(#289,#290,#298,#305,#306));
#289 = ORIENTED_EDGE('',*,*,#164,.F.);
#290 = ORIENTED_EDGE('',*,*,#291,.T.);
#291 = EDGE_CURVE('',#165,#292,#294,.T.);
#292 = VERTEX_POINT('',#293);
#293 = CARTESIAN_POINT('',(7.86,-2.2,-2.856));
#294 = LINE('',#295,#296);
#295 = CARTESIAN_POINT('',(7.86,-2.2,7.78));
#296 = VECTOR('',#297,1.);
#297 = DIRECTION('',(-0.E+000,-0.E+000,-1.));
#298 = ORIENTED_EDGE('',*,*,#299,.T.);
#299 = EDGE_CURVE('',#292,#292,#300,.T.);
#300 = CIRCLE('',#301,0.36);
#301 = AXIS2_PLACEMENT_3D('',#302,#303,#304);
#302 = CARTESIAN_POINT('',(7.5,-2.2,-2.856));
#303 = DIRECTION('',(0.E+000,0.E+000,1.));
#304 = DIRECTION('',(1.,0.E+000,0.E+000));
#305 = ORIENTED_EDGE('',*,*,#291,.F.);
#306 = ORIENTED_EDGE('',*,*,#185,.F.);
#307 = CYLINDRICAL_SURFACE('',#308,0.36);
#308 = AXIS2_PLACEMENT_3D('',#309,#310,#311);
#309 = CARTESIAN_POINT('',(7.5,-2.2,7.78));
#310 = DIRECTION('',(0.E+000,0.E+000,1.));
#311 = DIRECTION('',(1.,0.E+000,0.E+000));
#312 = ADVANCED_FACE('',(#313),#333,.T.);
#313 = FACE_BOUND('',#314,.F.);
#314 = EDGE_LOOP('',(#315,#324,#325,#326));
#315 = ORIENTED_EDGE('',*,*,#316,.F.);
#316 = EDGE_CURVE('',#257,#317,#319,.T.);
#317 = VERTEX_POINT('',#318);
#318 = CARTESIAN_POINT('',(0.216,0.E+000,-3.));
#319 = CIRCLE('',#320,0.144);
#320 = AXIS2_PLACEMENT_3D('',#321,#322,#323);
#321 = CARTESIAN_POINT('',(0.216,0.E+000,-2.856));
#322 = DIRECTION('',(-0.E+000,1.,0.E+000));
#323 = DIRECTION('',(1.,0.E+000,0.E+000));
#324 = ORIENTED_EDGE('',*,*,#264,.T.);
#325 = ORIENTED_EDGE('',*,*,#316,.T.);
#326 = ORIENTED_EDGE('',*,*,#327,.F.);
#327 = EDGE_CURVE('',#317,#317,#328,.T.);
#328 = CIRCLE('',#329,0.216);
#329 = AXIS2_PLACEMENT_3D('',#330,#331,#332);
#330 = CARTESIAN_POINT('',(0.E+000,0.E+000,-3.));
#331 = DIRECTION('',(0.E+000,0.E+000,1.));
#332 = DIRECTION('',(1.,0.E+000,0.E+000));
#333 = TOROIDAL_SURFACE('',#334,0.216,0.144);
#334 = AXIS2_PLACEMENT_3D('',#335,#336,#337);
#335 = CARTESIAN_POINT('',(0.E+000,0.E+000,-2.856));
#336 = DIRECTION('',(-0.E+000,-0.E+000,-1.));
#337 = DIRECTION('',(1.,0.E+000,0.E+000));
#338 = ADVANCED_FACE('',(#339),#359,.T.);
#339 = FACE_BOUND('',#340,.F.);
#340 = EDGE_LOOP('',(#341,#350,#351,#352));
#341 = ORIENTED_EDGE('',*,*,#342,.F.);
#342 = EDGE_CURVE('',#292,#343,#345,.T.);
#343 = VERTEX_POINT('',#344);
#344 = CARTESIAN_POINT('',(7.716,-2.2,-3.));
#345 = CIRCLE('',#346,0.144);
#346 = AXIS2_PLACEMENT_3D('',#347,#348,#349);
#347 = CARTESIAN_POINT('',(7.716,-2.2,-2.856));
#348 = DIRECTION('',(-0.E+000,1.,0.E+000));
#349 = DIRECTION('',(1.,0.E+000,0.E+000));
#350 = ORIENTED_EDGE('',*,*,#299,.T.);
#351 = ORIENTED_EDGE('',*,*,#342,.T.);
#352 = ORIENTED_EDGE('',*,*,#353,.F.);
#353 = EDGE_CURVE('',#343,#343,#354,.T.);
#354 = CIRCLE('',#355,0.216);
#355 = AXIS2_PLACEMENT_3D('',#356,#357,#358);
#356 = CARTESIAN_POINT('',(7.5,-2.2,-3.));
#357 = DIRECTION('',(0.E+000,0.E+000,1.));
#358 = DIRECTION('',(1.,0.E+000,0.E+000));
#359 = TOROIDAL_SURFACE('',#360,0.216,0.144);
#360 = AXIS2_PLACEMENT_3D('',#361,#362,#363);
#361 = CARTESIAN_POINT('',(7.5,-2.2,-2.856));
#362 = DIRECTION('',(-0.E+000,-0.E+000,-1.));
#363 = DIRECTION('',(1.,0.E+000,0.E+000));
#364 = ADVANCED_FACE('',(#365),#368,.F.);
#365 = FACE_BOUND('',#366,.F.);
#366 = EDGE_LOOP('',(#367));
#367 = ORIENTED_EDGE('',*,*,#327,.T.);
#368 = PLANE('',#369);
#369 = AXIS2_PLACEMENT_3D('',#370,#371,#372);
#370 = CARTESIAN_POINT('',(-1.483767504926E-017,1.497958850874E-017,-3.)
);
#371 = DIRECTION('',(0.E+000,0.E+000,1.));
#372 = DIRECTION('',(1.,0.E+000,0.E+000));
#373 = ADVANCED_FACE('',(#374),#377,.F.);
#374 = FACE_BOUND('',#375,.F.);
#375 = EDGE_LOOP('',(#376));
#376 = ORIENTED_EDGE('',*,*,#353,.T.);
#377 = PLANE('',#378);
#378 = AXIS2_PLACEMENT_3D('',#379,#380,#381);
#379 = CARTESIAN_POINT('',(7.5,-2.2,-3.));
#380 = DIRECTION('',(0.E+000,0.E+000,1.));
#381 = DIRECTION('',(1.,0.E+000,0.E+000));
#382 = ( GEOMETRIC_REPRESENTATION_CONTEXT(3)
GLOBAL_UNCERTAINTY_ASSIGNED_CONTEXT((#386)) GLOBAL_UNIT_ASSIGNED_CONTEXT
((#383,#384,#385)) REPRESENTATION_CONTEXT('Context #1',
'3D Context with UNIT and UNCERTAINTY') );
#383 = ( LENGTH_UNIT() NAMED_UNIT(*) SI_UNIT(.MILLI.,.METRE.) );
#384 = ( NAMED_UNIT(*) PLANE_ANGLE_UNIT() SI_UNIT($,.RADIAN.) );
#385 = ( NAMED_UNIT(*) SI_UNIT($,.STERADIAN.) SOLID_ANGLE_UNIT() );
#386 = UNCERTAINTY_MEASURE_WITH_UNIT(LENGTH_MEASURE(1.E-007),#383,
'distance_accuracy_value','confusion accuracy');
#387 = PRODUCT_RELATED_PRODUCT_CATEGORY('part',$,(#7));
#388 = MECHANICAL_DESIGN_GEOMETRIC_PRESENTATION_REPRESENTATION('',(#389,
#397,#404,#411,#418,#426,#433,#440,#447,#454,#461),#382);
#389 = STYLED_ITEM('color',(#390),#17);
#390 = PRESENTATION_STYLE_ASSIGNMENT((#391));
#391 = SURFACE_STYLE_USAGE(.BOTH.,#392);
#392 = SURFACE_SIDE_STYLE('',(#393));
#393 = SURFACE_STYLE_FILL_AREA(#394);
#394 = FILL_AREA_STYLE('',(#395));
#395 = FILL_AREA_STYLE_COLOUR('',#396);
#396 = COLOUR_RGB('',0.136999994516,0.402000010014,0.726999998093);
#397 = STYLED_ITEM('color',(#398),#50);
#398 = PRESENTATION_STYLE_ASSIGNMENT((#399));
#399 = SURFACE_STYLE_USAGE(.BOTH.,#400);
#400 = SURFACE_SIDE_STYLE('',(#401));
#401 = SURFACE_STYLE_FILL_AREA(#402);
#402 = FILL_AREA_STYLE('',(#403));
#403 = FILL_AREA_STYLE_COLOUR('',#396);
#404 = STYLED_ITEM('color',(#405),#140);
#405 = PRESENTATION_STYLE_ASSIGNMENT((#406));
#406 = SURFACE_STYLE_USAGE(.BOTH.,#407);
#407 = SURFACE_SIDE_STYLE('',(#408));
#408 = SURFACE_STYLE_FILL_AREA(#409);
#409 = FILL_AREA_STYLE('',(#410));
#410 = FILL_AREA_STYLE_COLOUR('',#396);
#411 = STYLED_ITEM('color',(#412),#242);
#412 = PRESENTATION_STYLE_ASSIGNMENT((#413));
#413 = SURFACE_STYLE_USAGE(.BOTH.,#414);
#414 = SURFACE_SIDE_STYLE('',(#415));
#415 = SURFACE_STYLE_FILL_AREA(#416);
#416 = FILL_AREA_STYLE('',(#417));
#417 = FILL_AREA_STYLE_COLOUR('',#396);
#418 = STYLED_ITEM('color',(#419),#251);
#419 = PRESENTATION_STYLE_ASSIGNMENT((#420));
#420 = SURFACE_STYLE_USAGE(.BOTH.,#421);
#421 = SURFACE_SIDE_STYLE('',(#422));
#422 = SURFACE_STYLE_FILL_AREA(#423);
#423 = FILL_AREA_STYLE('',(#424));
#424 = FILL_AREA_STYLE_COLOUR('',#425);
#425 = COLOUR_RGB('',0.824000000954,0.819999992847,0.78100001812);
#426 = STYLED_ITEM('color',(#427),#277);
#427 = PRESENTATION_STYLE_ASSIGNMENT((#428));
#428 = SURFACE_STYLE_USAGE(.BOTH.,#429);
#429 = SURFACE_SIDE_STYLE('',(#430));
#430 = SURFACE_STYLE_FILL_AREA(#431);
#431 = FILL_AREA_STYLE('',(#432));
#432 = FILL_AREA_STYLE_COLOUR('',#396);
#433 = STYLED_ITEM('color',(#434),#286);
#434 = PRESENTATION_STYLE_ASSIGNMENT((#435));
#435 = SURFACE_STYLE_USAGE(.BOTH.,#436);
#436 = SURFACE_SIDE_STYLE('',(#437));
#437 = SURFACE_STYLE_FILL_AREA(#438);
#438 = FILL_AREA_STYLE('',(#439));
#439 = FILL_AREA_STYLE_COLOUR('',#425);
#440 = STYLED_ITEM('color',(#441),#312);
#441 = PRESENTATION_STYLE_ASSIGNMENT((#442));
#442 = SURFACE_STYLE_USAGE(.BOTH.,#443);
#443 = SURFACE_SIDE_STYLE('',(#444));
#444 = SURFACE_STYLE_FILL_AREA(#445);
#445 = FILL_AREA_STYLE('',(#446));
#446 = FILL_AREA_STYLE_COLOUR('',#425);
#447 = STYLED_ITEM('color',(#448),#338);
#448 = PRESENTATION_STYLE_ASSIGNMENT((#449));
#449 = SURFACE_STYLE_USAGE(.BOTH.,#450);
#450 = SURFACE_SIDE_STYLE('',(#451));
#451 = SURFACE_STYLE_FILL_AREA(#452);
#452 = FILL_AREA_STYLE('',(#453));
#453 = FILL_AREA_STYLE_COLOUR('',#425);
#454 = STYLED_ITEM('color',(#455),#364);
#455 = PRESENTATION_STYLE_ASSIGNMENT((#456));
#456 = SURFACE_STYLE_USAGE(.BOTH.,#457);
#457 = SURFACE_SIDE_STYLE('',(#458));
#458 = SURFACE_STYLE_FILL_AREA(#459);
#459 = FILL_AREA_STYLE('',(#460));
#460 = FILL_AREA_STYLE_COLOUR('',#425);
#461 = STYLED_ITEM('color',(#462),#373);
#462 = PRESENTATION_STYLE_ASSIGNMENT((#463));
#463 = SURFACE_STYLE_USAGE(.BOTH.,#464);
#464 = SURFACE_SIDE_STYLE('',(#465));
#465 = SURFACE_STYLE_FILL_AREA(#466);
#466 = FILL_AREA_STYLE('',(#467));
#467 = FILL_AREA_STYLE_COLOUR('',#425);
ENDSEC;
END-ISO-10303-21;
